  0
SECTION
  2
HEADER
  9
$ACADVER
  1
AC1018
  9
$HANDSEED
  5
FFFFFF
  9
$EXTMAX
 10
7576785.03899999987
 20
5721519.03399999998
 30
1000000.00
  9
$EXTMIN
 10
7575657.2929999996
 20
5720537.2910000002
 30
0.00
  9
$LIMMIN
 10
7575657.2929999996
 20
5720537.2910000002
  9
$LIMMAX
 10
7576785.03899999987
 20
5721519.03399999998
  9
$DIMASZ
 40
2.5
  9
$DIMGAP
 40
0.625
  9
$INSUNITS
 70
6
  9
$MEASUREMENT
 70
1
  9
$DIMEXO
 40
0.625
  9
$DIMTXT
 40
2.5
  9
$DIMSTYLE
  2
Standard
  9
$PLIMMIN
 10
0.0
 20
0.0
  9
$PLIMMAX
 10
210.0
 20
297.0
  9
$DIMEXE
 40
1.25
  9
$TEXTSIZE
 40
2.5
  9
$TEXTSTYLE
  7
Standard
  9
$LWDISPLAY
290
1
  9
$TDCREATE
 40
45796.733592037
  9
$TDUCREATE
 40
45796.650258704
  9
$TDUPDATE
 40
45796.733592037
  9
$TDUUPDATE
 40
45796.650258704
  9
$TDINDWG
 40
0.0
  9
$TDUSRTIMER
 40
0.0
  9
$USRTIMER
 70
1
  0
ENDSEC
  0
SECTION
  2
TABLES
  0
TABLE
  2
VPORT
  5
1
100
AcDbSymbolTable
 70
1
  0
VPORT
  5
2
100
AcDbSymbolTableRecord
100
AcDbViewportTableRecord
  2
*ACTIVE
 70
0
 10
0.0
 20
0.0
 11
1.0
 21
1.0
 12
7576221.166
 22
5721028.162
 13
0.0
 23
0.0
 14
1.0
 24
1.0
 15
0.0
 25
0.0
 16
0.0
 26
0.0
 36
1.0
 17
0.0
 27
0.0
 37
0.0
 40
981.743
 41
1.149
 42
50.0
 43
0.0
 44
0.0
 50
0.0
 51
0.0
 71
0
 72
100
 73
1
 74
1
 75
0
 76
0
 77
0
 78
0
  0
ENDTAB
  0
TABLE
  2
LTYPE
  5
3
100
AcDbSymbolTable
 70
3
  0
LTYPE
  5
4
100
AcDbSymbolTableRecord
100
AcDbLinetypeTableRecord
  2
ByBlock
 70
0
  3

 72
65
 73
0
 40
0.0
  0
LTYPE
  5
5
100
AcDbSymbolTableRecord
100
AcDbLinetypeTableRecord
  2
ByLayer
 70
0
  3

 72
65
 73
0
 40
0.0
  0
LTYPE
  5
6
100
AcDbSymbolTableRecord
100
AcDbLinetypeTableRecord
  2
CONTINUOUS
 70
0
  3
Solid line
 72
65
 73
0
 40
0.0
  0
LTYPE
  5
7
100
AcDbSymbolTableRecord
100
AcDbLinetypeTableRecord
  2
L_0_06
 70
0
  3
Granica_konturu_klasyfikacyjnego_Krawedz_chodnika
 72
65
 73
2
 40
2.0
 49
1.5
 74
0
 49
-0.5
 74
0
  0
ENDTAB
  0
TABLE
  2
LAYER
  5
8
100
AcDbSymbolTable
 70
2
  0
LAYER
  5
9
100
AcDbSymbolTableRecord
100
AcDbLayerTableRecord
  2
0
 70
0
420
0
  6
CONTINUOUS
370
18
390
A
  0
LAYER
  5
B
100
AcDbSymbolTableRecord
100
AcDbLayerTableRecord
  2
pola_prob
 70
0
420
8421376
  6
CONTINUOUS
370
18
390
A
  0
ENDTAB
  0
TABLE
  2
STYLE
  5
C
100
AcDbSymbolTable
 70
2
  0
STYLE
  5
D
100
AcDbSymbolTableRecord
100
AcDbTextStyleTableRecord
  2
STANDARD
 70
0
 40
0.0
 41
1.0
 50
0.0
 71
0
  3
simplex.shx
  4

  0
STYLE
  5
E
100
AcDbSymbolTableRecord
100
AcDbTextStyleTableRecord
  2
STANDARD_ITALIC
 70
0
 40
0.0
 41
1.0
 50
15.0
 71
0
  3
simplex.shx
  4

  0
ENDTAB
  0
TABLE
  2
VIEW
  5
F
100
AcDbSymbolTable
 70
0
  0
ENDTAB
  0
TABLE
  2
UCS
  5
10
100
AcDbSymbolTable
 70
0
  0
ENDTAB
  0
TABLE
  2
APPID
  5
11
100
AcDbSymbolTable
 70
1
  0
APPID
  5
12
100
AcDbSymbolTableRecord
100
AcDbRegAppTableRecord
  2
ACAD
 70
0
  0
ENDTAB
  0
TABLE
  2
DIMSTYLE
  5
13
100
AcDbSymbolTable
 70
1
100
AcDbDimStyleTable
  0
DIMSTYLE
105
14
100
AcDbSymbolTableRecord
100
AcDbDimStyleTableRecord
  2
Standard
 70
0
340
D
  0
ENDTAB
  0
TABLE
  2
BLOCK_RECORD
  5
15
100
AcDbSymbolTable
 70
2
  0
BLOCK_RECORD
  5
16
100
AcDbSymbolTableRecord
100
AcDbBlockTableRecord
  2
*Model_Space
340
17
  0
BLOCK_RECORD
  5
18
100
AcDbSymbolTableRecord
100
AcDbBlockTableRecord
  2
*Paper_Space
340
19
  0
ENDTAB
  0
ENDSEC
  0
SECTION
  2
BLOCKS
  0
BLOCK
  5
1A
100
AcDbEntity
  8
0
100
AcDbBlockBegin
  2
*Model_Space
 70
0
 10
0.0
 20
0.0
 30
0.0
  3
*Model_Space
  1

  0
ENDBLK
  5
1B
100
AcDbEntity
  8
0
100
AcDbBlockEnd
  0
BLOCK
  5
1C
100
AcDbEntity
 67
1
  8
0
100
AcDbBlockBegin
  2
*Paper_Space
 70
0
 10
0.0
 20
0.0
 30
0.0
  3
*Paper_Space
  1

  0
ENDBLK
  5
1D
100
AcDbEntity
 67
1
  8
0
100
AcDbBlockEnd
  0
ENDSEC
  0
SECTION
  2
ENTITIES
  0
HATCH
  5
1E
100
AcDbEntity
  8
pola_prob
  6
CONTINUOUS
 62
256
370
18
100
AcDbHatch
 10
0.0
 20
0.0
 30
0.0
210
-0.0
220
-0.0
230
1.0
  2
DiagCross
 70
0
 71
1
 91
1
 92
3
 72
0
 73
1
 93
4
 10
7575752.76673262659
 20
5721519.03412856162
 10
7575867.381052115
 20
5721422.27021035831
 10
7575771.907319488
 20
5721309.18408179656
 10
7575657.2929999996
 20
5721405.94799999986
 97
0
 75
0
 76
1
 52
0
 41
1.0
 77
0
 78
2
 53
45
 43
0.0
 44
0.0
 45
-0.53033008589
 46
0.53033008589
 79
0
 53
135
 43
0.0
 44
0.0
 45
0.53033008589
 46
0.53033008589
 79
0
 98
0
  0
POLYLINE
  5
1F
100
AcDbEntity
  8
pola_prob
  6
CONTINUOUS
370
18
100
AcDb2dPolyline
 66
1
 70
129
  0
VERTEX
  5
20
100
AcDbEntity
  8
pola_prob
100
AcDbVertex
100
AcDb2dVertex
 10
7575752.76673262659
 20
5721519.03412856162
  0
VERTEX
  5
21
100
AcDbEntity
  8
pola_prob
100
AcDbVertex
100
AcDb2dVertex
 10
7575867.381052115
 20
5721422.27021035831
  0
VERTEX
  5
22
100
AcDbEntity
  8
pola_prob
100
AcDbVertex
100
AcDb2dVertex
 10
7575771.907319488
 20
5721309.18408179656
  0
VERTEX
  5
23
100
AcDbEntity
  8
pola_prob
100
AcDbVertex
100
AcDb2dVertex
 10
7575657.2929999996
 20
5721405.94799999986
  0
SEQEND
  5
24
100
AcDbEntity
  8
pola_prob
  0
HATCH
  5
25
100
AcDbEntity
  8
pola_prob
  6
CONTINUOUS
 62
256
370
18
100
AcDbHatch
 10
0.0
 20
0.0
 30
0.0
210
-0.0
220
-0.0
230
1.0
  2
DiagCross
 70
0
 71
1
 91
1
 92
3
 72
0
 73
1
 93
4
 10
7575989.63632623572
 20
5721319.05536427442
 10
7575894.16259360779
 20
5721205.96923571266
 10
7575779.54827412032
 20
5721302.73315391596
 10
7575875.02200674731
 20
5721415.81928247772
 97
0
 75
0
 76
1
 52
0
 41
1.0
 77
0
 78
2
 53
45
 43
0.0
 44
0.0
 45
-0.53033008589
 46
0.53033008589
 79
0
 53
135
 43
0.0
 44
0.0
 45
0.53033008589
 46
0.53033008589
 79
0
 98
0
  0
POLYLINE
  5
26
100
AcDbEntity
  8
pola_prob
  6
CONTINUOUS
370
18
100
AcDb2dPolyline
 66
1
 70
129
  0
VERTEX
  5
27
100
AcDbEntity
  8
pola_prob
100
AcDbVertex
100
AcDb2dVertex
 10
7575989.63632623572
 20
5721319.05536427442
  0
VERTEX
  5
28
100
AcDbEntity
  8
pola_prob
100
AcDbVertex
100
AcDb2dVertex
 10
7575894.16259360779
 20
5721205.96923571266
  0
VERTEX
  5
29
100
AcDbEntity
  8
pola_prob
100
AcDbVertex
100
AcDb2dVertex
 10
7575779.54827412032
 20
5721302.73315391596
  0
VERTEX
  5
2A
100
AcDbEntity
  8
pola_prob
100
AcDbVertex
100
AcDb2dVertex
 10
7575875.02200674731
 20
5721415.81928247772
  0
SEQEND
  5
2B
100
AcDbEntity
  8
pola_prob
  0
HATCH
  5
2C
100
AcDbEntity
  8
pola_prob
  6
CONTINUOUS
 62
256
370
18
100
AcDbHatch
 10
0.0
 20
0.0
 30
0.0
210
-0.0
220
-0.0
230
1.0
  2
DiagCross
 70
0
 71
1
 91
1
 92
3
 72
0
 73
1
 93
4
 10
7575997.27728086803
 20
5721312.60443639383
 10
7576150.09637351893
 20
5721183.58587878942
 10
7576054.622640891
 20
5721070.49975022767
 10
7575901.80354824103
 20
5721199.51830783207
 97
0
 75
0
 76
1
 52
0
 41
1.0
 77
0
 78
2
 53
45
 43
0.0
 44
0.0
 45
-0.53033008589
 46
0.53033008589
 79
0
 53
135
 43
0.0
 44
0.0
 45
0.53033008589
 46
0.53033008589
 79
0
 98
0
  0
POLYLINE
  5
2D
100
AcDbEntity
  8
pola_prob
  6
CONTINUOUS
370
18
100
AcDb2dPolyline
 66
1
 70
129
  0
VERTEX
  5
2E
100
AcDbEntity
  8
pola_prob
100
AcDbVertex
100
AcDb2dVertex
 10
7575997.27728086803
 20
5721312.60443639383
  0
VERTEX
  5
2F
100
AcDbEntity
  8
pola_prob
100
AcDbVertex
100
AcDb2dVertex
 10
7576150.09637351893
 20
5721183.58587878942
  0
VERTEX
  5
30
100
AcDbEntity
  8
pola_prob
100
AcDbVertex
100
AcDb2dVertex
 10
7576054.622640891
 20
5721070.49975022767
  0
VERTEX
  5
31
100
AcDbEntity
  8
pola_prob
100
AcDbVertex
100
AcDb2dVertex
 10
7575901.80354824103
 20
5721199.51830783207
  0
SEQEND
  5
32
100
AcDbEntity
  8
pola_prob
  0
HATCH
  5
33
100
AcDbEntity
  8
pola_prob
  6
CONTINUOUS
 62
256
370
18
100
AcDbHatch
 10
0.0
 20
0.0
 30
0.0
210
-0.0
220
-0.0
230
1.0
  2
DiagCross
 70
0
 71
1
 91
1
 92
3
 72
0
 73
1
 93
4
 10
7576157.73732815124
 20
5721177.13495090883
 10
7576272.35164763872
 20
5721080.37103270553
 10
7576176.87791501172
 20
5720967.28490414377
 10
7576062.26359552331
 20
5721064.04882234801
 97
0
 75
0
 76
1
 52
0
 41
1.0
 77
0
 78
2
 53
45
 43
0.0
 44
0.0
 45
-0.53033008589
 46
0.53033008589
 79
0
 53
135
 43
0.0
 44
0.0
 45
0.53033008589
 46
0.53033008589
 79
0
 98
0
  0
POLYLINE
  5
34
100
AcDbEntity
  8
pola_prob
  6
CONTINUOUS
370
18
100
AcDb2dPolyline
 66
1
 70
129
  0
VERTEX
  5
35
100
AcDbEntity
  8
pola_prob
100
AcDbVertex
100
AcDb2dVertex
 10
7576157.73732815124
 20
5721177.13495090883
  0
VERTEX
  5
36
100
AcDbEntity
  8
pola_prob
100
AcDbVertex
100
AcDb2dVertex
 10
7576272.35164763872
 20
5721080.37103270553
  0
VERTEX
  5
37
100
AcDbEntity
  8
pola_prob
100
AcDbVertex
100
AcDb2dVertex
 10
7576176.87791501172
 20
5720967.28490414377
  0
VERTEX
  5
38
100
AcDbEntity
  8
pola_prob
100
AcDbVertex
100
AcDb2dVertex
 10
7576062.26359552331
 20
5721064.04882234801
  0
SEQEND
  5
39
100
AcDbEntity
  8
pola_prob
  0
HATCH
  5
3A
100
AcDbEntity
  8
pola_prob
  6
CONTINUOUS
 62
256
370
18
100
AcDbHatch
 10
0.0
 20
0.0
 30
0.0
210
-0.0
220
-0.0
230
1.0
  2
DiagCross
 70
0
 71
1
 91
1
 92
3
 72
0
 73
1
 93
4
 10
7576575.6284490237
 20
5720633.81413227133
 10
7576670.2211186504
 20
5720746.3353322288
 10
7576785.03866962623
 20
5720649.81219995674
 10
7576690.44600000046
 20
5720537.2910000002
 97
0
 75
0
 76
1
 52
0
 41
1.0
 77
0
 78
2
 53
45
 43
0.0
 44
0.0
 45
-0.53033008589
 46
0.53033008589
 79
0
 53
135
 43
0.0
 44
0.0
 45
0.53033008589
 46
0.53033008589
 79
0
 98
0
  0
POLYLINE
  5
3B
100
AcDbEntity
  8
pola_prob
  6
CONTINUOUS
370
18
100
AcDb2dPolyline
 66
1
 70
129
  0
VERTEX
  5
3C
100
AcDbEntity
  8
pola_prob
100
AcDbVertex
100
AcDb2dVertex
 10
7576575.6284490237
 20
5720633.81413227133
  0
VERTEX
  5
3D
100
AcDbEntity
  8
pola_prob
100
AcDbVertex
100
AcDb2dVertex
 10
7576670.2211186504
 20
5720746.3353322288
  0
VERTEX
  5
3E
100
AcDbEntity
  8
pola_prob
100
AcDbVertex
100
AcDb2dVertex
 10
7576785.03866962623
 20
5720649.81219995674
  0
VERTEX
  5
3F
100
AcDbEntity
  8
pola_prob
100
AcDbVertex
100
AcDb2dVertex
 10
7576690.44600000046
 20
5720537.2910000002
  0
SEQEND
  5
40
100
AcDbEntity
  8
pola_prob
  0
HATCH
  5
41
100
AcDbEntity
  8
pola_prob
  6
CONTINUOUS
 62
256
370
18
100
AcDbHatch
 10
0.0
 20
0.0
 30
0.0
210
-0.0
220
-0.0
230
1.0
  2
DiagCross
 70
0
 71
1
 91
1
 92
3
 72
0
 73
1
 93
4
 10
7576662.56661525182
 20
5720752.77020771336
 10
7576567.97394562606
 20
5720640.24900775682
 10
7576453.1563946493
 20
5720736.77214002796
 10
7576547.74906427506
 20
5720849.29333998449
 97
0
 75
0
 76
1
 52
0
 41
1.0
 77
0
 78
2
 53
45
 43
0.0
 44
0.0
 45
-0.53033008589
 46
0.53033008589
 79
0
 53
135
 43
0.0
 44
0.0
 45
0.53033008589
 46
0.53033008589
 79
0
 98
0
  0
POLYLINE
  5
42
100
AcDbEntity
  8
pola_prob
  6
CONTINUOUS
370
18
100
AcDb2dPolyline
 66
1
 70
129
  0
VERTEX
  5
43
100
AcDbEntity
  8
pola_prob
100
AcDbVertex
100
AcDb2dVertex
 10
7576662.56661525182
 20
5720752.77020771336
  0
VERTEX
  5
44
100
AcDbEntity
  8
pola_prob
100
AcDbVertex
100
AcDb2dVertex
 10
7576567.97394562606
 20
5720640.24900775682
  0
VERTEX
  5
45
100
AcDbEntity
  8
pola_prob
100
AcDbVertex
100
AcDb2dVertex
 10
7576453.1563946493
 20
5720736.77214002796
  0
VERTEX
  5
46
100
AcDbEntity
  8
pola_prob
100
AcDbVertex
100
AcDb2dVertex
 10
7576547.74906427506
 20
5720849.29333998449
  0
SEQEND
  5
47
100
AcDbEntity
  8
pola_prob
  0
HATCH
  5
48
100
AcDbEntity
  8
pola_prob
  6
CONTINUOUS
 62
256
370
18
100
AcDbHatch
 10
0.0
 20
0.0
 30
0.0
210
-0.0
220
-0.0
230
1.0
  2
DiagCross
 70
0
 71
1
 91
1
 92
3
 72
0
 73
1
 93
4
 10
7576540.09456087742
 20
5720855.72821546905
 10
7576445.50189125072
 20
5720743.20701551251
 10
7576292.41182328295
 20
5720871.90452520829
 10
7576387.00449290872
 20
5720984.42572516482
 97
0
 75
0
 76
1
 52
0
 41
1.0
 77
0
 78
2
 53
45
 43
0.0
 44
0.0
 45
-0.53033008589
 46
0.53033008589
 79
0
 53
135
 43
0.0
 44
0.0
 45
0.53033008589
 46
0.53033008589
 79
0
 98
0
  0
POLYLINE
  5
49
100
AcDbEntity
  8
pola_prob
  6
CONTINUOUS
370
18
100
AcDb2dPolyline
 66
1
 70
129
  0
VERTEX
  5
4A
100
AcDbEntity
  8
pola_prob
100
AcDbVertex
100
AcDb2dVertex
 10
7576540.09456087742
 20
5720855.72821546905
  0
VERTEX
  5
4B
100
AcDbEntity
  8
pola_prob
100
AcDbVertex
100
AcDb2dVertex
 10
7576445.50189125072
 20
5720743.20701551251
  0
VERTEX
  5
4C
100
AcDbEntity
  8
pola_prob
100
AcDbVertex
100
AcDb2dVertex
 10
7576292.41182328295
 20
5720871.90452520829
  0
VERTEX
  5
4D
100
AcDbEntity
  8
pola_prob
100
AcDbVertex
100
AcDb2dVertex
 10
7576387.00449290872
 20
5720984.42572516482
  0
SEQEND
  5
4E
100
AcDbEntity
  8
pola_prob
  0
TEXT
  5
4F
100
AcDbEntity
  8
pola_prob
370
18
100
AcDbText
 10
7576118.30757703912
 20
5721016.96176894288
 40
0.90
  1
-150.00-
 50
-40.00
 41
0.66
  7
STANDARD
 72
1
 11
7576119.49362075422
 21
5721015.57493791264
100
AcDbText
 73
1
  0
TEXT
  5
50
100
AcDbEntity
  8
pola_prob
370
18
100
AcDbText
 10
7576223.31987562869
 20
5721022.56479019579
 40
0.90
  1
-148.00-
 50
-310.00
 41
0.66
  7
STANDARD
 72
1
 11
7576224.70670665894
 21
5721023.75083391089
100
AcDbText
 73
1
  0
TEXT
  5
51
100
AcDbEntity
  8
pola_prob
370
18
100
AcDbText
 10
7576213.78130966704
 20
5721130.04789750371
 40
0.90
  1
-150.00-
 50
-40.00
 41
0.66
  7
STANDARD
 72
1
 11
7576214.96735338215
 21
5721128.66106647346
100
AcDbText
 73
1
  0
TEXT
  5
52
100
AcDbEntity
  8
pola_prob
370
18
100
AcDbText
 10
7576108.70555614028
 20
5721119.32870840002
 40
0.90
  1
-148.00-
 50
-310.00
 41
0.66
  7
STANDARD
 72
1
 11
7576110.09238717053
 21
5721120.51475211512
100
AcDbText
 73
1
  0
TEXT
  5
53
100
AcDbEntity
  8
pola_prob
370
18
100
AcDbText
 10
7575976.94991633762
 20
5721136.30393472686
 40
0.90
  1
-200.00-
 50
-40.00
 41
0.66
  7
STANDARD
 72
1
 11
7575978.13596005272
 21
5721134.91710369661
100
AcDbText
 73
1
  0
TEXT
  5
54
100
AcDbEntity
  8
pola_prob
370
18
100
AcDbText
 10
7576101.06460150797
 20
5721125.77963627968
 40
0.90
  1
-148.00-
 50
-310.00
 41
0.66
  7
STANDARD
 72
1
 11
7576102.45143253822
 21
5721126.96567999478
100
AcDbText
 73
1
  0
TEXT
  5
55
100
AcDbEntity
  8
pola_prob
370
18
100
AcDbText
 10
7576072.42364896554
 20
5721249.39006328862
 40
0.90
  1
-200.00-
 50
-40.00
 41
0.66
  7
STANDARD
 72
1
 11
7576073.60969268065
 21
5721248.00323225837
100
AcDbText
 73
1
  0
TEXT
  5
56
100
AcDbEntity
  8
pola_prob
370
18
100
AcDbText
 10
7575948.245508858
 20
5721254.79819388408
 40
0.90
  1
-148.00-
 50
-310.00
 41
0.66
  7
STANDARD
 72
1
 11
7575949.63233988825
 21
5721255.98423759919
100
AcDbText
 73
1
  0
TEXT
  5
57
100
AcDbEntity
  8
pola_prob
370
18
100
AcDbText
 10
7575825.99023473728
 20
5721358.01303996798
 40
0.90
  1
-148.00-
 50
-310.00
 41
0.66
  7
STANDARD
 72
1
 11
7575827.37706576753
 21
5721359.19908368308
100
AcDbText
 73
1
  0
TEXT
  5
58
100
AcDbEntity
  8
pola_prob
370
18
100
AcDbText
 10
7575835.59225563612
 20
5721255.64610051084
 40
0.90
  1
-150.00-
 50
-40.00
 41
0.66
  7
STANDARD
 72
1
 11
7575836.77829935122
 21
5721254.25926948059
100
AcDbText
 73
1
  0
TEXT
  5
59
100
AcDbEntity
  8
pola_prob
370
18
100
AcDbText
 10
7575940.60455422476
 20
5721261.24912176561
 40
0.90
  1
-148.00-
 50
-310.00
 41
0.66
  7
STANDARD
 72
1
 11
7575941.99138525501
 21
5721262.43516548071
100
AcDbText
 73
1
  0
TEXT
  5
5A
100
AcDbEntity
  8
pola_prob
370
18
100
AcDbText
 10
7575931.06598826312
 20
5721368.73222907353
 40
0.90
  1
-150.00-
 50
-40.00
 41
0.66
  7
STANDARD
 72
1
 11
7575932.25203197822
 21
5721367.34539804328
100
AcDbText
 73
1
  0
TEXT
  5
5B
100
AcDbEntity
  8
pola_prob
370
18
100
AcDbText
 10
7575713.3369815154
 20
5721358.86094659474
 40
0.90
  1
-150.00-
 50
-40.00
 41
0.66
  7
STANDARD
 72
1
 11
7575714.5230252305
 21
5721357.47411556449
100
AcDbText
 73
1
  0
TEXT
  5
5C
100
AcDbEntity
  8
pola_prob
370
18
100
AcDbText
 10
7575818.34928010497
 20
5721364.4639678495
 40
0.90
  1
-148.00-
 50
-310.00
 41
0.66
  7
STANDARD
 72
1
 11
7575819.73611113522
 21
5721365.6500115646
100
AcDbText
 73
1
  0
TEXT
  5
5D
100
AcDbEntity
  8
pola_prob
370
18
100
AcDbText
 10
7575808.8107141424
 20
5721471.94707515743
 40
0.90
  1
-150.00-
 50
-40.00
 41
0.66
  7
STANDARD
 72
1
 11
7575809.9967578575
 21
5721470.56024412718
100
AcDbText
 73
1
  0
TEXT
  5
5E
100
AcDbEntity
  8
pola_prob
370
18
100
AcDbText
 10
7575703.73496061657
 20
5721461.22788605187
 40
0.90
  1
-148.00-
 50
-310.00
 41
0.66
  7
STANDARD
 72
1
 11
7575705.12179164682
 21
5721462.41392976698
100
AcDbText
 73
1
  0
ENDSEC
  0
SECTION
  2
OBJECTS
  0
DICTIONARY
  5
5F
330
0
100
AcDbDictionary
280
0
281
1
  3
ACAD_GROUP
350
60
  3
ACAD_LAYOUT
350
61
  3
ACAD_MLINESTYLE
350
62
  3
ACAD_PLOTSETTINGS
350
63
  3
ACAD_PLOTSTYLENAME
350
64
  0
DICTIONARY
  5
60
102
{ACAD_REACTORS
330
5F
102
}
330
5F
100
AcDbDictionary
280
0
281
1
  0
DICTIONARY
  5
61
102
{ACAD_REACTORS
330
5F
102
}
330
5F
100
AcDbDictionary
280
0
281
1
  3
Layout
350
19
  3
Model
350
17
  0
DICTIONARY
  5
62
102
{ACAD_REACTORS
330
5F
102
}
330
5F
100
AcDbDictionary
280
0
281
1
  3
Standard
350
65
  0
DICTIONARY
  5
63
102
{ACAD_REACTORS
330
5F
102
}
330
5F
100
AcDbDictionary
280
0
281
1
  0
ACDBDICTIONARYWDFLT
  5
64
102
{ACAD_REACTORS
330
5F
102
}
330
5F
100
AcDbDictionary
281
1
  3
Normal
350
A
100
AcDbDictionaryWithDefault
340
A
  0
LAYOUT
  5
19
100
AcDbPlotSettings
  1

  2

  4

  6

 40
0.0
 41
0.0
 42
0.0
 43
0.0
 44
0.0
 45
0.0
 46
0.0
 47
0.0
 48
0.0
 49
0.0
140
0.0
141
0.0
142
1.0
143
1.0
 70
688
 72
1
 73
0
 74
5
  7

 75
0
147
1.0
148
0.0
149
0.0
100
AcDbLayout
  1
Layout
 70
1
 71
1
 10
0.0
 20
0.0
 11
420.0
 21
297.0
 12
0.0
 22
0.0
 32
0.0
 14
100000000000000000000.0
 24
100000000000000000000.0
 34
100000000000000000000.0
 15
-100000000000000000000.0
 25
-100000000000000000000.0
 35
-100000000000000000000.0
146
0.0
 13
0.0
 23
0.0
 33
0.0
 16
1.0
 26
0.0
 36
0.0
 17
0.0
 27
1.0
 37
0.0
 76
0
330
18
  0
LAYOUT
  5
17
100
AcDbPlotSettings
  1

  2

  4

  6

 40
0.0
 41
0.0
 42
0.0
 43
0.0
 44
0.0
 45
0.0
 46
0.0
 47
0.0
 48
0.0
 49
0.0
140
0.0
141
0.0
142
1.0
143
1.0
 70
1712
 72
1
 73
0
 74
0
  7

 75
0
147
1.0
148
0.0
149
0.0
100
AcDbLayout
  1
Model
 70
1
 71
0
 10
0.0
 20
0.0
 11
12.0
 21
9.0
 12
0.0
 22
0.0
 32
0.0
 14
0.0
 24
0.0
 34
0.0
 15
0.0
 25
0.0
 35
0.0
146
0.0
 13
0.0
 23
0.0
 33
0.0
 16
1.0
 26
0.0
 36
0.0
 17
0.0
 27
1.0
 37
0.0
 76
0
330
16
  0
MLINESTYLE
  5
65
102
{ACAD_REACTORS
330
62
102
}
330
62
100
AcDbMlineStyle
  2
Standard
 70
0
  3

 62
256
 51
90.0
 52
90.0
  2
Standard
 71
2
 49
0.5
 62
256
  6
ByLayer
 49
-0.5
 62
256
  6
ByLayer
  0
ACDBPLACEHOLDER
  5
A
  0
ENDSEC
  0
EOF
